“Akira” en tablatura para guitarra

akira
Hola amigos, este posteo esta dedicado a todos los guitarristas que andan dando vueltas por ahi,buscando tablaturas para tocar,bueno, hoy me sente un rato en la pc y escribí la tab del tema “Akira”.
La afinacion que usamos es la que esta escrita en la tablatura,o sea la 6ta cuerda en “Do” y todas las demas un tono abajo del La 440, para sacar el tema tene en cuenta que de las 6 lineas escritas la de mas abajo es la 6ta cuerda,o sea la mas gruesa..Ya estamos filmando un videito que muestra como tocarlo!!!!!!!! Si alguien se anima a hacer mas tabs de Pork será bienvenido y serán posteadas o a filmar algun video tocando algun tema también,,,

Nos estamos viendo…

Mariano “Nino” Conde

Intro 
                                               
D |---------------------------------------------|
A |---------------------------------------------|
F |---------------------------------------------|
C |---5-4--x-x-x-x-x-x-x-x-x-x-x-x-x-x-x-x------|
G |---5-4--x-x-x-x-x-x-x-x-x-x-x-x-x-x-x-x------|
C |---5-4--x-x-x-x-x-x-x-x-x-x-x-x-x-x-x-x------|
   
"Three,two,one,,,,,,,"
D |-----------------------|----------------------------------------------|
A |-----------------------|----------------------------------------------|
F |-----------------------|----------------------------------------------|
C |-----------------------|-3-2-1-2-3-2-1-2-3-1-2------------------------|
G |-----------------------|-3-2-1-2-3-2-1-2-3-1-2------------------------|
C |-3-2-1-2-3-2-1-2-3-1-2-|-3-2-1-2-3-2-1-2-3-1-2------------------------|
D |-------------------------||------------------------|
A |-------------------------||------------------------|
F |-------------------------||------------------------|
C |--3-2-1-2--x-x-x-x-x-x-x-||-X-X-X-X-X-X-X-X--3-3-3-|
G |--3-2-1-2--x-x-x-x-x-x-x-||-X-X-X-X-X-X-X-X--3-3-3-|
C |--3-2-1-2--x-x-x-x-x-x-x-||-X-X-X-X-X-X-X-X--3-3-3-|
     "Akira 3,2,1..........."         "Tried so hARD,,"  
   

D |---------------------------------------------------|
A |---------------------------------------------------|
F |--6-6-------3-3--5-5--6----------------------------|
C |--6-6--1-1--3-3--5-5--6--1-------------------------|
G |--4-4--1-1--1-1--3-3--4--1-------------------------|
C |-------1-1---------------1--3-2-1-2-3-2-1-2-3-1-2--|
 "To be a better boy a better friend.." 

Estr.
D |---------------------------------------------------|
A |---------------------------------------------------|
F |---------------------------------------------------|
C |--0-0-0-0-0-0-0-0-3-3-3-3-3-3-3-3-5-5-5-5-5-5-5-5--|
G |--0-0-0-0-0-0-0-0-3-3-3-3-3-3-3-3-5-5-5-5-5-5-5-5--|
C |--0-0-0-0-0-0-0-0-3-3-3-3-3-3-3-3-5-5-5-5-5-5-5-5--|
     Explode!!!!! 
D |---------------------------------------------------|
A |---------------------------------------------------|
F |-------------7-7--5-5------------------------------|
C |-8-8-8-8-10--7-7--5-5--5-5--8--10------------------|
G |-8-8-8-8-10--5-5--3-3--5-5--8--10------------------|
C |-8-8-8-8-10------------5-5--8--10------------------|
           "I take it that you're...."

D |---------------------------------------------------|
A |---------------------------------------------------|
F |---------------------------------------------------|
C |---------------------------------------------------|
G |---------------------------------------------------|
C |-0-8-0-7-0-10-0-8-0-7-0----------------------------|

D |--------------------------------------------------------|
A |--------------------------------------------------------|
F |--------------------------------------------------------|
C |--------------------------------------------------------|
G |--------------------------------------------------------|
C |--0-8-0-7-0-10-0-8-0-7-0-0-0-0-8-0-7-0-10-0-8-0-7-0-0-0-|
     Anata Baka!!!!!!!!
D |--------------------------------------------------------|
A |--------------------------------------------------------|
F |--------------------------------------------------------|
C |--------------------------------------------------------|
G |-----10-0--10-0--11-0--11-0--11-0--11-0--11-------------|
C |--0-----------------------------------------------------|
    Three,,,two,,,,One!!!
D |---------------------------------------------------------|
A |---------------------------------------------------------|
F |---------------------------------------------------------|
C |---------------------------------------------------------|
G |---------------------------------------------------------|
C |-13-0-12-0-11-0-10-0-9-0-8-0-7-0-6-0-5-0-4-0-3-0-2-0-1-0-|

D |---------------|
A |---------------|
F |---------------|
C |-0-0-0-0-0-0-0-|
G |-0-0-0-0-0-0-0-|
C |-0-0-0-0-0-0-0-|

http://www.youtube.com/watch?v=hI_WtnLEVEI

—————

Advertisements

3 Responses to ““Akira” en tablatura para guitarra”

  1. TE FELIZITO ESTA DE 10

  2. MauroMegadeth Says:

    por favor podrias poner la de bajo porq hace rato la queremos tocar con unos amigos por favor y aguante pork!!

  3. Uhhh GENIOS, alta banda, los vi la otra vez en Peteco’s cuando fui a ver a Carajo y desde entocnes no puedo parar de escucharlos!
    Sigan así, ya me estoy poniendo a tocar el tema.
    Saludos 🙂

Leave a Reply

Fill in your details below or click an icon to log in:

WordPress.com Logo

You are commenting using your WordPress.com account. Log Out / Change )

Twitter picture

You are commenting using your Twitter account. Log Out / Change )

Facebook photo

You are commenting using your Facebook account. Log Out / Change )

Google+ photo

You are commenting using your Google+ account. Log Out / Change )

Connecting to %s

%d bloggers like this: